ISO-10303-21;
HEADER;
FILE_DESCRIPTION (( 'STEP AP203' ),
    '1' );
FILE_NAME ('Cube_1m.STEP',
    '2023-07-31T15:10:19',
    ( '' ),
    ( '' ),
    'SwSTEP 2.0',
    'SolidWorks 2023',
    '' );
FILE_SCHEMA (( 'CONFIG_CONTROL_DESIGN' ));
ENDSEC;

DATA;
#1 = AXIS2_PLACEMENT_3D ( 'NONE', #133, #116, #72 ) ;
#2 =( LENGTH_UNIT ( ) NAMED_UNIT ( * ) SI_UNIT ( .MILLI., .METRE. ) );
#3 = FACE_OUTER_BOUND ( 'NONE', #99, .T. ) ;
#4 = CARTESIAN_POINT ( 'NONE',  ( 500.0000000000000000, 1000.000000000000000, -500.0000000000000000 ) ) ;
#5 = VECTOR ( 'NONE', #233, 1000.000000000000000 ) ;
#6 = ORIENTED_EDGE ( 'NONE', *, *, #15, .T. ) ;
#7 = DIRECTION ( 'NONE',  ( -0.000000000000000000, -1.000000000000000000, -0.000000000000000000 ) ) ;
#8 = ORIENTED_EDGE ( 'NONE', *, *, #75, .T. ) ;
#9 = VECTOR ( 'NONE', #205, 1000.000000000000000 ) ;
#10 = LOCAL_TIME ( 11, 10, 19.00000000000000000, #88 ) ;
#11 = PLANE ( 'NONE',  #220 ) ;
#12 = CARTESIAN_POINT ( 'NONE',  ( -500.0000000000000000, 1000.000000000000000, 500.0000000000000000 ) ) ;
#13 = DIRECTION ( 'NONE',  ( -0.000000000000000000, -1.000000000000000000, -0.000000000000000000 ) ) ;
#14 = CARTESIAN_POINT ( 'NONE',  ( 500.0000000000000000, 1000.000000000000000, -500.0000000000000000 ) ) ;
#15 = EDGE_CURVE ( 'NONE', #40, #58, #139, .T. ) ;
#16 = CALENDAR_DATE ( 2023, 31, 7 ) ;
#17 = AXIS2_PLACEMENT_3D ( 'NONE', #175, #73, #126 ) ;
#18 = PERSON_AND_ORGANIZATION ( #134, #228 ) ;
#19 = PLANE ( 'NONE',  #145 ) ;
#20 = PERSON_AND_ORGANIZATION ( #134, #228 ) ;
#21 =( GEOMETRIC_REPRESENTATION_CONTEXT ( 3 ) GLOBAL_UNCERTAINTY_ASSIGNED_CONTEXT ( ( #152 ) ) GLOBAL_UNIT_ASSIGNED_CONTEXT ( ( #2, #168, #174 ) ) REPRESENTATION_CONTEXT ( 'NONE', 'WORKASPACE' ) );
#22 = FACE_OUTER_BOUND ( 'NONE', #137, .T. ) ;
#23 = PRODUCT_DEFINITION ( 'UNKNOWN', '', #51, #86 ) ;
#24 = DIRECTION ( 'NONE',  ( 0.000000000000000000, 0.000000000000000000, -1.000000000000000000 ) ) ;
#25 = APPLICATION_PROTOCOL_DEFINITION ( 'international standard', 'config_control_design', 1994, #59 ) ;
#26 = PLANE ( 'NONE',  #17 ) ;
#27 = EDGE_LOOP ( 'NONE', ( #141, #8, #121, #123 ) ) ;
#28 = CARTESIAN_POINT ( 'NONE',  ( 500.0000000000000000, 1000.000000000000000, -500.0000000000000000 ) ) ;
#29 = CARTESIAN_POINT ( 'NONE',  ( -500.0000000000000000, 0.000000000000000000, -500.0000000000000000 ) ) ;
#30 = FACE_OUTER_BOUND ( 'NONE', #78, .T. ) ;
#31 = LINE ( 'NONE', #183, #179 ) ;
#32 = PLANE ( 'NONE',  #173 ) ;
#33 = VECTOR ( 'NONE', #44, 1000.000000000000000 ) ;
#34 = DATE_AND_TIME ( #16, #224 ) ;
#35 = ADVANCED_FACE ( 'NONE', ( #198 ), #26, .T. ) ;
#36 = CALENDAR_DATE ( 2023, 31, 7 ) ;
#37 = VECTOR ( 'NONE', #61, 1000.000000000000000 ) ;
#38 = CC_DESIGN_APPROVAL ( #210, ( #51 ) ) ;
#39 = CARTESIAN_POINT ( 'NONE',  ( -500.0000000000000000, 1000.000000000000000, 500.0000000000000000 ) ) ;
#40 = VERTEX_POINT ( 'NONE', #98 ) ;
#41 = ORIENTED_EDGE ( 'NONE', *, *, #119, .F. ) ;
#42 = ORIENTED_EDGE ( 'NONE', *, *, #69, .T. ) ;
#43 = CC_DESIGN_PERSON_AND_ORGANIZATION_ASSIGNMENT ( #167, #188, ( #180 ) ) ;
#44 = DIRECTION ( 'NONE',  ( 0.000000000000000000, 0.000000000000000000, 1.000000000000000000 ) ) ;
#45 = CARTESIAN_POINT ( 'NONE',  ( -500.0000000000000000, 0.000000000000000000, 500.0000000000000000 ) ) ;
#46 = APPLICATION_CONTEXT ( 'configuration controlled 3d designs of mechanical parts and assemblies' ) ;
#47 = LINE ( 'NONE', #203, #101 ) ;
#48 = ORIENTED_EDGE ( 'NONE', *, *, #144, .F. ) ;
#49 = CARTESIAN_POINT ( 'NONE',  ( 500.0000000000000000, 0.000000000000000000, 500.0000000000000000 ) ) ;
#50 = CARTESIAN_POINT ( 'NONE',  ( 500.0000000000000000, 1000.000000000000000, 500.0000000000000000 ) ) ;
#51 = PRODUCT_DEFINITION_FORMATION_WITH_SPECIFIED_SOURCE ( 'ANY', '', #68, .NOT_KNOWN. ) ;
#52 = DATE_AND_TIME ( #110, #186 ) ;
#53 = CC_DESIGN_PERSON_AND_ORGANIZATION_ASSIGNMENT ( #192, #92, ( #68 ) ) ;
#54 = DATE_AND_TIME ( #117, #90 ) ;
#55 = VECTOR ( 'NONE', #209, 1000.000000000000000 ) ;
#56 = PLANE ( 'NONE',  #129 ) ;
#57 = VERTEX_POINT ( 'NONE', #127 ) ;
#58 = VERTEX_POINT ( 'NONE', #49 ) ;
#59 = APPLICATION_CONTEXT ( 'configuration controlled 3d designs of mechanical parts and assemblies' ) ;
#60 = EDGE_CURVE ( 'NONE', #57, #80, #185, .T. ) ;
#61 = DIRECTION ( 'NONE',  ( -0.000000000000000000, -1.000000000000000000, -0.000000000000000000 ) ) ;
#62 = ORIENTED_EDGE ( 'NONE', *, *, #211, .F. ) ;
#63 = LINE ( 'NONE', #232, #236 ) ;
#64 = ORIENTED_EDGE ( 'NONE', *, *, #96, .F. ) ;
#65 = CARTESIAN_POINT ( 'NONE',  ( 500.0000000000000000, 0.000000000000000000, -500.0000000000000000 ) ) ;
#66 = PLANE ( 'NONE',  #70 ) ;
#67 = CLOSED_SHELL ( 'NONE', ( #226, #164, #169, #234, #35, #219 ) ) ;
#68 = PRODUCT ( 'Cube_1m', 'Cube_1m', '', ( #155 ) ) ;
#69 = EDGE_CURVE ( 'NONE', #80, #120, #31, .T. ) ;
#70 = AXIS2_PLACEMENT_3D ( 'NONE', #138, #105, #217 ) ;
#71 = DATE_AND_TIME ( #172, #194 ) ;
#72 = DIRECTION ( 'NONE',  ( 1.000000000000000000, 0.000000000000000000, 0.000000000000000000 ) ) ;
#73 = DIRECTION ( 'NONE',  ( 0.000000000000000000, 1.000000000000000000, 0.000000000000000000 ) ) ;
#74 = VERTEX_POINT ( 'NONE', #124 ) ;
#75 = EDGE_CURVE ( 'NONE', #80, #135, #81, .T. ) ;
#76 = LINE ( 'NONE', #50, #170 ) ;
#77 = CC_DESIGN_APPROVAL ( #166, ( #23 ) ) ;
#78 = EDGE_LOOP ( 'NONE', ( #97, #199, #230, #42 ) ) ;
#79 = CARTESIAN_POINT ( 'NONE',  ( 0.000000000000000000, 0.000000000000000000, 0.000000000000000000 ) ) ;
#80 = VERTEX_POINT ( 'NONE', #28 ) ;
#81 = LINE ( 'NONE', #103, #85 ) ;
#82 = DIRECTION ( 'NONE',  ( -1.000000000000000000, -0.000000000000000000, -0.000000000000000000 ) ) ;
#83 = CC_DESIGN_PERSON_AND_ORGANIZATION_ASSIGNMENT ( #93, #115, ( #23 ) ) ;
#84 = APPROVAL_DATE_TIME ( #112, #210 ) ;
#85 = VECTOR ( 'NONE', #82, 1000.000000000000000 ) ;
#86 = DESIGN_CONTEXT ( 'detailed design', #59, 'design' ) ;
#87 = APPROVAL_STATUS ( 'not_yet_approved' ) ;
#88 = COORDINATED_UNIVERSAL_TIME_OFFSET ( 5, 0, .BEHIND. ) ;
#89 = COORDINATED_UNIVERSAL_TIME_OFFSET ( 5, 0, .BEHIND. ) ;
#90 = LOCAL_TIME ( 11, 10, 19.00000000000000000, #154 ) ;
#91 = PERSON_AND_ORGANIZATION ( #134, #228 ) ;
#92 = PERSON_AND_ORGANIZATION_ROLE ( 'design_owner' ) ;
#93 = PERSON_AND_ORGANIZATION ( #134, #228 ) ;
#94 = APPLICATION_PROTOCOL_DEFINITION ( 'international standard', 'config_control_design', 1994, #46 ) ;
#95 = APPROVAL ( #87, 'UNSPECIFIED' ) ;
#96 = EDGE_CURVE ( 'NONE', #74, #57, #162, .T. ) ;
#97 = ORIENTED_EDGE ( 'NONE', *, *, #144, .T. ) ;
#98 = CARTESIAN_POINT ( 'NONE',  ( -500.0000000000000000, 0.000000000000000000, 500.0000000000000000 ) ) ;
#99 = EDGE_LOOP ( 'NONE', ( #6, #125, #64, #118 ) ) ;
#100 = DIRECTION ( 'NONE',  ( 1.000000000000000000, 0.000000000000000000, -0.000000000000000000 ) ) ;
#101 = VECTOR ( 'NONE', #204, 1000.000000000000000 ) ;
#102 = EDGE_LOOP ( 'NONE', ( #178, #202, #41, #48 ) ) ;
#103 = CARTESIAN_POINT ( 'NONE',  ( -500.0000000000000000, 1000.000000000000000, -500.0000000000000000 ) ) ;
#104 = CARTESIAN_POINT ( 'NONE',  ( -500.0000000000000000, 1000.000000000000000, -500.0000000000000000 ) ) ;
#105 = DIRECTION ( 'NONE',  ( 1.000000000000000000, 0.000000000000000000, 0.000000000000000000 ) ) ;
#106 = PRODUCT_RELATED_PRODUCT_CATEGORY ( 'detail', '', ( #68 ) ) ;
#107 = EDGE_CURVE ( 'NONE', #135, #215, #140, .T. ) ;
#108 = CC_DESIGN_APPROVAL ( #95, ( #180 ) ) ;
#109 = SHAPE_DEFINITION_REPRESENTATION ( #146, #222 ) ;
#110 = CALENDAR_DATE ( 2023, 31, 7 ) ;
#111 = PERSON_AND_ORGANIZATION ( #134, #228 ) ;
#112 = DATE_AND_TIME ( #36, #10 ) ;
#113 = APPROVAL_PERSON_ORGANIZATION ( #18, #95, #130 ) ;
#114 = APPROVAL_PERSON_ORGANIZATION ( #111, #210, #132 ) ;
#115 = PERSON_AND_ORGANIZATION_ROLE ( 'creator' ) ;
#116 = DIRECTION ( 'NONE',  ( 0.000000000000000000, 0.000000000000000000, 1.000000000000000000 ) ) ;
#117 = CALENDAR_DATE ( 2023, 31, 7 ) ;
#118 = ORIENTED_EDGE ( 'NONE', *, *, #128, .T. ) ;
#119 = EDGE_CURVE ( 'NONE', #215, #40, #63, .T. ) ;
#120 = VERTEX_POINT ( 'NONE', #159 ) ;
#121 = ORIENTED_EDGE ( 'NONE', *, *, #211, .T. ) ;
#122 = DIRECTION ( 'NONE',  ( 0.000000000000000000, 0.000000000000000000, 1.000000000000000000 ) ) ;
#123 = ORIENTED_EDGE ( 'NONE', *, *, #96, .T. ) ;
#124 = CARTESIAN_POINT ( 'NONE',  ( -500.0000000000000000, 1000.000000000000000, 500.0000000000000000 ) ) ;
#125 = ORIENTED_EDGE ( 'NONE', *, *, #189, .F. ) ;
#126 = DIRECTION ( 'NONE',  ( 0.000000000000000000, -0.000000000000000000, 1.000000000000000000 ) ) ;
#127 = CARTESIAN_POINT ( 'NONE',  ( 500.0000000000000000, 1000.000000000000000, 500.0000000000000000 ) ) ;
#128 = EDGE_CURVE ( 'NONE', #74, #40, #142, .T. ) ;
#129 = AXIS2_PLACEMENT_3D ( 'NONE', #4, #195, #171 ) ;
#130 = APPROVAL_ROLE ( '' ) ;
#131 = APPROVAL_DATE_TIME ( #71, #166 ) ;
#132 = APPROVAL_ROLE ( '' ) ;
#133 = CARTESIAN_POINT ( 'NONE',  ( 0.000000000000000000, 0.000000000000000000, 0.000000000000000000 ) ) ;
#134 = PERSON ( 'UNSPECIFIED', 'UNSPECIFIED', 'UNSPECIFIED', ('UNSPECIFIED'), ('UNSPECIFIED'), ('UNSPECIFIED') ) ;
#135 = VERTEX_POINT ( 'NONE', #214 ) ;
#136 = APPROVAL_PERSON_ORGANIZATION ( #91, #166, #151 ) ;
#137 = EDGE_LOOP ( 'NONE', ( #158, #176, #157, #212 ) ) ;
#138 = CARTESIAN_POINT ( 'NONE',  ( -500.0000000000000000, 1000.000000000000000, -500.0000000000000000 ) ) ;
#139 = LINE ( 'NONE', #45, #55 ) ;
#140 = LINE ( 'NONE', #177, #37 ) ;
#141 = ORIENTED_EDGE ( 'NONE', *, *, #60, .T. ) ;
#142 = LINE ( 'NONE', #231, #193 ) ;
#143 = FACE_OUTER_BOUND ( 'NONE', #227, .T. ) ;
#144 = EDGE_CURVE ( 'NONE', #120, #215, #47, .T. ) ;
#145 = AXIS2_PLACEMENT_3D ( 'NONE', #39, #24, #207 ) ;
#146 = PRODUCT_DEFINITION_SHAPE ( 'NONE', 'NONE',  #23 ) ;
#147 = PERSON_AND_ORGANIZATION_ROLE ( 'creator' ) ;
#148 = CC_DESIGN_PERSON_AND_ORGANIZATION_ASSIGNMENT ( #165, #147, ( #51 ) ) ;
#149 = DATE_TIME_ROLE ( 'classification_date' ) ;
#150 = EDGE_CURVE ( 'NONE', #58, #120, #163, .T. ) ;
#151 = APPROVAL_ROLE ( '' ) ;
#152 = UNCERTAINTY_MEASURE_WITH_UNIT (LENGTH_MEASURE( 1.000000000000000082E-05 ), #2, 'distance_accuracy_value', 'NONE');
#153 = CC_DESIGN_SECURITY_CLASSIFICATION ( #180, ( #51 ) ) ;
#154 = COORDINATED_UNIVERSAL_TIME_OFFSET ( 5, 0, .BEHIND. ) ;
#155 = MECHANICAL_CONTEXT ( 'NONE', #46, 'mechanical' ) ;
#156 = VECTOR ( 'NONE', #229, 1000.000000000000000 ) ;
#157 = ORIENTED_EDGE ( 'NONE', *, *, #60, .F. ) ;
#158 = ORIENTED_EDGE ( 'NONE', *, *, #150, .T. ) ;
#159 = CARTESIAN_POINT ( 'NONE',  ( 500.0000000000000000, 0.000000000000000000, -500.0000000000000000 ) ) ;
#160 = ORIENTED_EDGE ( 'NONE', *, *, #119, .T. ) ;
#161 = DIRECTION ( 'NONE',  ( 0.000000000000000000, 1.000000000000000000, 0.000000000000000000 ) ) ;
#162 = LINE ( 'NONE', #12, #9 ) ;
#163 = LINE ( 'NONE', #65, #5 ) ;
#164 = ADVANCED_FACE ( 'NONE', ( #30 ), #32, .F. ) ;
#165 = PERSON_AND_ORGANIZATION ( #134, #228 ) ;
#166 = APPROVAL ( #196, 'UNSPECIFIED' ) ;
#167 = PERSON_AND_ORGANIZATION ( #134, #228 ) ;
#168 =( NAMED_UNIT ( * ) PLANE_ANGLE_UNIT ( ) SI_UNIT ( $, .RADIAN. ) );
#169 = ADVANCED_FACE ( 'NONE', ( #143 ), #66, .F. ) ;
#170 = VECTOR ( 'NONE', #7, 1000.000000000000000 ) ;
#171 = DIRECTION ( 'NONE',  ( 0.000000000000000000, 0.000000000000000000, 1.000000000000000000 ) ) ;
#172 = CALENDAR_DATE ( 2023, 31, 7 ) ;
#173 = AXIS2_PLACEMENT_3D ( 'NONE', #104, #184, #100 ) ;
#174 =( NAMED_UNIT ( * ) SI_UNIT ( $, .STERADIAN. ) SOLID_ANGLE_UNIT ( ) );
#175 = CARTESIAN_POINT ( 'NONE',  ( 0.000000000000000000, 1000.000000000000000, 0.000000000000000000 ) ) ;
#176 = ORIENTED_EDGE ( 'NONE', *, *, #69, .F. ) ;
#177 = CARTESIAN_POINT ( 'NONE',  ( -500.0000000000000000, 1000.000000000000000, -500.0000000000000000 ) ) ;
#178 = ORIENTED_EDGE ( 'NONE', *, *, #150, .F. ) ;
#179 = VECTOR ( 'NONE', #13, 1000.000000000000000 ) ;
#180 = SECURITY_CLASSIFICATION ( '', '', #223 ) ;
#181 = FACE_OUTER_BOUND ( 'NONE', #102, .T. ) ;
#182 = ORIENTED_EDGE ( 'NONE', *, *, #107, .T. ) ;
#183 = CARTESIAN_POINT ( 'NONE',  ( 500.0000000000000000, 1000.000000000000000, -500.0000000000000000 ) ) ;
#184 = DIRECTION ( 'NONE',  ( 0.000000000000000000, 0.000000000000000000, 1.000000000000000000 ) ) ;
#185 = LINE ( 'NONE', #14, #156 ) ;
#186 = LOCAL_TIME ( 11, 10, 19.00000000000000000, #221 ) ;
#187 = CC_DESIGN_DATE_AND_TIME_ASSIGNMENT ( #54, #197, ( #23 ) ) ;
#188 = PERSON_AND_ORGANIZATION_ROLE ( 'classification_officer' ) ;
#189 = EDGE_CURVE ( 'NONE', #57, #58, #76, .T. ) ;
#190 = APPROVAL_STATUS ( 'not_yet_approved' ) ;
#191 = PERSON_AND_ORGANIZATION_ROLE ( 'design_supplier' ) ;
#192 = PERSON_AND_ORGANIZATION ( #134, #228 ) ;
#193 = VECTOR ( 'NONE', #216, 1000.000000000000000 ) ;
#194 = LOCAL_TIME ( 11, 10, 19.00000000000000000, #208 ) ;
#195 = DIRECTION ( 'NONE',  ( -1.000000000000000000, 0.000000000000000000, 0.000000000000000000 ) ) ;
#196 = APPROVAL_STATUS ( 'not_yet_approved' ) ;
#197 = DATE_TIME_ROLE ( 'creation_date' ) ;
#198 = FACE_OUTER_BOUND ( 'NONE', #27, .T. ) ;
#199 = ORIENTED_EDGE ( 'NONE', *, *, #107, .F. ) ;
#200 = ORIENTED_EDGE ( 'NONE', *, *, #128, .F. ) ;
#201 = CARTESIAN_POINT ( 'NONE',  ( -500.0000000000000000, 1000.000000000000000, -500.0000000000000000 ) ) ;
#202 = ORIENTED_EDGE ( 'NONE', *, *, #15, .F. ) ;
#203 = CARTESIAN_POINT ( 'NONE',  ( -500.0000000000000000, 0.000000000000000000, -500.0000000000000000 ) ) ;
#204 = DIRECTION ( 'NONE',  ( -1.000000000000000000, -0.000000000000000000, -0.000000000000000000 ) ) ;
#205 = DIRECTION ( 'NONE',  ( 1.000000000000000000, 0.000000000000000000, 0.000000000000000000 ) ) ;
#206 = DIRECTION ( 'NONE',  ( 0.000000000000000000, -0.000000000000000000, 1.000000000000000000 ) ) ;
#207 = DIRECTION ( 'NONE',  ( -1.000000000000000000, 0.000000000000000000, -0.000000000000000000 ) ) ;
#208 = COORDINATED_UNIVERSAL_TIME_OFFSET ( 5, 0, .BEHIND. ) ;
#209 = DIRECTION ( 'NONE',  ( 1.000000000000000000, 0.000000000000000000, 0.000000000000000000 ) ) ;
#210 = APPROVAL ( #190, 'UNSPECIFIED' ) ;
#211 = EDGE_CURVE ( 'NONE', #135, #74, #213, .T. ) ;
#212 = ORIENTED_EDGE ( 'NONE', *, *, #189, .T. ) ;
#213 = LINE ( 'NONE', #201, #33 ) ;
#214 = CARTESIAN_POINT ( 'NONE',  ( -500.0000000000000000, 1000.000000000000000, -500.0000000000000000 ) ) ;
#215 = VERTEX_POINT ( 'NONE', #29 ) ;
#216 = DIRECTION ( 'NONE',  ( -0.000000000000000000, -1.000000000000000000, -0.000000000000000000 ) ) ;
#217 = DIRECTION ( 'NONE',  ( 0.000000000000000000, 0.000000000000000000, -1.000000000000000000 ) ) ;
#218 = CC_DESIGN_DATE_AND_TIME_ASSIGNMENT ( #52, #149, ( #180 ) ) ;
#219 = ADVANCED_FACE ( 'NONE', ( #181 ), #11, .F. ) ;
#220 = AXIS2_PLACEMENT_3D ( 'NONE', #79, #161, #206 ) ;
#221 = COORDINATED_UNIVERSAL_TIME_OFFSET ( 5, 0, .BEHIND. ) ;
#222 = ADVANCED_BREP_SHAPE_REPRESENTATION ( 'Cube_1m', ( #235, #1 ), #21 ) ;
#223 = SECURITY_CLASSIFICATION_LEVEL ( 'unclassified' ) ;
#224 = LOCAL_TIME ( 11, 10, 19.00000000000000000, #89 ) ;
#225 = CC_DESIGN_PERSON_AND_ORGANIZATION_ASSIGNMENT ( #20, #191, ( #51 ) ) ;
#226 = ADVANCED_FACE ( 'NONE', ( #22 ), #56, .F. ) ;
#227 = EDGE_LOOP ( 'NONE', ( #160, #200, #62, #182 ) ) ;
#228 = ORGANIZATION ( 'UNSPECIFIED', 'UNSPECIFIED', '' ) ;
#229 = DIRECTION ( 'NONE',  ( -0.000000000000000000, -0.000000000000000000, -1.000000000000000000 ) ) ;
#230 = ORIENTED_EDGE ( 'NONE', *, *, #75, .F. ) ;
#231 = CARTESIAN_POINT ( 'NONE',  ( -500.0000000000000000, 1000.000000000000000, 500.0000000000000000 ) ) ;
#232 = CARTESIAN_POINT ( 'NONE',  ( -500.0000000000000000, 0.000000000000000000, -500.0000000000000000 ) ) ;
#233 = DIRECTION ( 'NONE',  ( -0.000000000000000000, -0.000000000000000000, -1.000000000000000000 ) ) ;
#234 = ADVANCED_FACE ( 'NONE', ( #3 ), #19, .F. ) ;
#235 = MANIFOLD_SOLID_BREP ( 'Boss-Extrude1', #67 ) ;
#236 = VECTOR ( 'NONE', #122, 1000.000000000000000 ) ;
#237 = APPROVAL_DATE_TIME ( #34, #95 ) ;
ENDSEC;
END-ISO-10303-21;
