ISO-10303-21;
HEADER;
FILE_DESCRIPTION((('zoo.dev export')), '2;1');
FILE_NAME('dump.step', '2021-01-01T00:00:00+00:00', ('Author unknown'), ('Organization unknown'), 'zoo.dev beta', 'zoo.dev', 'Authorization unknown');
FILE_SCHEMA(('AP203_CONFIGURATION_CONTROLLED_3D_DESIGN_OF_MECHANICAL_PARTS_AND_ASSEMBLIES_MIM_LF'));
ENDSEC;
DATA;
#1 = (
  LENGTH_UNIT()
  NAMED_UNIT(*)
  SI_UNIT($, .METRE.)
);
#2 = UNCERTAINTY_MEASURE_WITH_UNIT(0.00001, #1, 'DISTANCE_ACCURACY_VALUE', $);
#3 = (
  GEOMETRIC_REPRESENTATION_CONTEXT(3)
  GLOBAL_UNCERTAINTY_ASSIGNED_CONTEXT((#2))
  GLOBAL_UNIT_ASSIGNED_CONTEXT((#1))
  REPRESENTATION_CONTEXT('', '3D')
);
#4 = CARTESIAN_POINT('NONE', (-0.000000000000000006221205739668554, -0.0508, -0));
#5 = VERTEX_POINT('NONE', #4);
#6 = CARTESIAN_POINT('NONE', (-0.033820100000000006, -0.05079999999999999, -0));
#7 = VERTEX_POINT('NONE', #6);
#8 = CARTESIAN_POINT('NONE', (-0.033820100000000006, -0.05079999999999999, -0.6096));
#9 = VERTEX_POINT('NONE', #8);
#10 = CARTESIAN_POINT('NONE', (-0.000000000000000006221205739668554, -0.0508, -0.6096));
#11 = VERTEX_POINT('NONE', #10);
#12 = CARTESIAN_POINT('NONE', (-0.033820100000000006, -0.04335779999999999, -0));
#13 = VERTEX_POINT('NONE', #12);
#14 = CARTESIAN_POINT('NONE', (-0.033820100000000006, -0.04335779999999999, -0.6096));
#15 = VERTEX_POINT('NONE', #14);
#16 = CARTESIAN_POINT('NONE', (-0.0037211000000000054, -0.0433578, -0));
#17 = VERTEX_POINT('NONE', #16);
#18 = CARTESIAN_POINT('NONE', (-0.0037211000000000054, -0.0433578, -0.6096));
#19 = VERTEX_POINT('NONE', #18);
#20 = CARTESIAN_POINT('NONE', (-0.0037210999999999998, 0.0433578, -0));
#21 = VERTEX_POINT('NONE', #20);
#22 = CARTESIAN_POINT('NONE', (-0.0037210999999999998, 0.0433578, -0.6096));
#23 = VERTEX_POINT('NONE', #22);
#24 = CARTESIAN_POINT('NONE', (-0.0338201, 0.043357799999999995, -0));
#25 = VERTEX_POINT('NONE', #24);
#26 = CARTESIAN_POINT('NONE', (-0.0338201, 0.043357799999999995, -0.6096));
#27 = VERTEX_POINT('NONE', #26);
#28 = CARTESIAN_POINT('NONE', (-0.0338201, 0.0508, -0));
#29 = VERTEX_POINT('NONE', #28);
#30 = CARTESIAN_POINT('NONE', (-0.0338201, 0.0508, -0.6096));
#31 = VERTEX_POINT('NONE', #30);
#32 = CARTESIAN_POINT('NONE', (0.0338201, 0.0508, -0));
#33 = VERTEX_POINT('NONE', #32);
#34 = CARTESIAN_POINT('NONE', (0.0338201, 0.0508, -0.6096));
#35 = VERTEX_POINT('NONE', #34);
#36 = CARTESIAN_POINT('NONE', (0.0338201, 0.043357799999999995, -0));
#37 = VERTEX_POINT('NONE', #36);
#38 = CARTESIAN_POINT('NONE', (0.0338201, 0.043357799999999995, -0.6096));
#39 = VERTEX_POINT('NONE', #38);
#40 = CARTESIAN_POINT('NONE', (0.0037210999999999998, 0.0433578, -0));
#41 = VERTEX_POINT('NONE', #40);
#42 = CARTESIAN_POINT('NONE', (0.0037210999999999998, 0.0433578, -0.6096));
#43 = VERTEX_POINT('NONE', #42);
#44 = CARTESIAN_POINT('NONE', (0.0037211000000000054, -0.0433578, -0));
#45 = VERTEX_POINT('NONE', #44);
#46 = CARTESIAN_POINT('NONE', (0.0037211000000000054, -0.0433578, -0.6096));
#47 = VERTEX_POINT('NONE', #46);
#48 = CARTESIAN_POINT('NONE', (0.033820100000000006, -0.04335779999999999, -0));
#49 = VERTEX_POINT('NONE', #48);
#50 = CARTESIAN_POINT('NONE', (0.033820100000000006, -0.04335779999999999, -0.6096));
#51 = VERTEX_POINT('NONE', #50);
#52 = CARTESIAN_POINT('NONE', (0.033820100000000006, -0.05079999999999999, -0));
#53 = VERTEX_POINT('NONE', #52);
#54 = CARTESIAN_POINT('NONE', (0.033820100000000006, -0.05079999999999999, -0.6096));
#55 = VERTEX_POINT('NONE', #54);
#56 = DIRECTION('NONE', (-1, 0.00000000000000020517070925003855, 0));
#57 = VECTOR('NONE', #56, 1);
#58 = CARTESIAN_POINT('NONE', (-0.000000000000000006221205739668554, -0.0508, -0));
#59 = LINE('NONE', #58, #57);
#60 = DIRECTION('NONE', (0, 0, -1));
#61 = VECTOR('NONE', #60, 1);
#62 = CARTESIAN_POINT('NONE', (-0.033820100000000006, -0.05079999999999999, -0));
#63 = LINE('NONE', #62, #61);
#64 = DIRECTION('NONE', (-1, 0.00000000000000020517070925003855, 0));
#65 = VECTOR('NONE', #64, 1);
#66 = CARTESIAN_POINT('NONE', (-0.000000000000000006221205739668554, -0.0508, -0.6096));
#67 = LINE('NONE', #66, #65);
#68 = DIRECTION('NONE', (0, 0, -1));
#69 = VECTOR('NONE', #68, 1);
#70 = CARTESIAN_POINT('NONE', (-0.000000000000000006221205739668554, -0.0508, -0));
#71 = LINE('NONE', #70, #69);
#72 = DIRECTION('NONE', (0, 1, 0));
#73 = VECTOR('NONE', #72, 1);
#74 = CARTESIAN_POINT('NONE', (-0.033820100000000006, -0.05079999999999999, -0));
#75 = LINE('NONE', #74, #73);
#76 = DIRECTION('NONE', (0, 0, -1));
#77 = VECTOR('NONE', #76, 1);
#78 = CARTESIAN_POINT('NONE', (-0.033820100000000006, -0.04335779999999999, -0));
#79 = LINE('NONE', #78, #77);
#80 = DIRECTION('NONE', (0, 1, 0));
#81 = VECTOR('NONE', #80, 1);
#82 = CARTESIAN_POINT('NONE', (-0.033820100000000006, -0.05079999999999999, -0.6096));
#83 = LINE('NONE', #82, #81);
#84 = DIRECTION('NONE', (1, -0.0000000000000004610713913357407, 0));
#85 = VECTOR('NONE', #84, 1);
#86 = CARTESIAN_POINT('NONE', (-0.033820100000000006, -0.04335779999999999, -0));
#87 = LINE('NONE', #86, #85);
#88 = DIRECTION('NONE', (0, 0, -1));
#89 = VECTOR('NONE', #88, 1);
#90 = CARTESIAN_POINT('NONE', (-0.0037211000000000054, -0.0433578, -0));
#91 = LINE('NONE', #90, #89);
#92 = DIRECTION('NONE', (1, -0.0000000000000004610713913357407, 0));
#93 = VECTOR('NONE', #92, 1);
#94 = CARTESIAN_POINT('NONE', (-0.033820100000000006, -0.04335779999999999, -0.6096));
#95 = LINE('NONE', #94, #93);
#96 = DIRECTION('NONE', (0.00000000000000006501542164183402, 1, 0));
#97 = VECTOR('NONE', #96, 1);
#98 = CARTESIAN_POINT('NONE', (-0.0037211000000000054, -0.0433578, -0));
#99 = LINE('NONE', #98, #97);
#100 = DIRECTION('NONE', (0, 0, -1));
#101 = VECTOR('NONE', #100, 1);
#102 = CARTESIAN_POINT('NONE', (-0.0037210999999999998, 0.0433578, -0));
#103 = LINE('NONE', #102, #101);
#104 = DIRECTION('NONE', (0.00000000000000006501542164183402, 1, 0));
#105 = VECTOR('NONE', #104, 1);
#106 = CARTESIAN_POINT('NONE', (-0.0037211000000000054, -0.0433578, -0.6096));
#107 = LINE('NONE', #106, #105);
#108 = DIRECTION('NONE', (-1, -0.00000000000000023053569566787033, 0));
#109 = VECTOR('NONE', #108, 1);
#110 = CARTESIAN_POINT('NONE', (-0.0037210999999999998, 0.0433578, -0));
#111 = LINE('NONE', #110, #109);
#112 = DIRECTION('NONE', (0, 0, -1));
#113 = VECTOR('NONE', #112, 1);
#114 = CARTESIAN_POINT('NONE', (-0.0338201, 0.043357799999999995, -0));
#115 = LINE('NONE', #114, #113);
#116 = DIRECTION('NONE', (-1, -0.00000000000000023053569566787033, 0));
#117 = VECTOR('NONE', #116, 1);
#118 = CARTESIAN_POINT('NONE', (-0.0037210999999999998, 0.0433578, -0.6096));
#119 = LINE('NONE', #118, #117);
#120 = DIRECTION('NONE', (0, 1, 0));
#121 = VECTOR('NONE', #120, 1);
#122 = CARTESIAN_POINT('NONE', (-0.0338201, 0.043357799999999995, -0));
#123 = LINE('NONE', #122, #121);
#124 = DIRECTION('NONE', (0, 0, -1));
#125 = VECTOR('NONE', #124, 1);
#126 = CARTESIAN_POINT('NONE', (-0.0338201, 0.0508, -0));
#127 = LINE('NONE', #126, #125);
#128 = DIRECTION('NONE', (0, 1, 0));
#129 = VECTOR('NONE', #128, 1);
#130 = CARTESIAN_POINT('NONE', (-0.0338201, 0.043357799999999995, -0.6096));
#131 = LINE('NONE', #130, #129);
#132 = DIRECTION('NONE', (1, 0, 0));
#133 = VECTOR('NONE', #132, 1);
#134 = CARTESIAN_POINT('NONE', (-0.0338201, 0.0508, -0));
#135 = LINE('NONE', #134, #133);
#136 = DIRECTION('NONE', (0, 0, -1));
#137 = VECTOR('NONE', #136, 1);
#138 = CARTESIAN_POINT('NONE', (0.0338201, 0.0508, -0));
#139 = LINE('NONE', #138, #137);
#140 = DIRECTION('NONE', (1, 0, 0));
#141 = VECTOR('NONE', #140, 1);
#142 = CARTESIAN_POINT('NONE', (-0.0338201, 0.0508, -0.6096));
#143 = LINE('NONE', #142, #141);
#144 = DIRECTION('NONE', (0, -1, 0));
#145 = VECTOR('NONE', #144, 1);
#146 = CARTESIAN_POINT('NONE', (0.0338201, 0.0508, -0));
#147 = LINE('NONE', #146, #145);
#148 = DIRECTION('NONE', (0, 0, -1));
#149 = VECTOR('NONE', #148, 1);
#150 = CARTESIAN_POINT('NONE', (0.0338201, 0.043357799999999995, -0));
#151 = LINE('NONE', #150, #149);
#152 = DIRECTION('NONE', (0, -1, 0));
#153 = VECTOR('NONE', #152, 1);
#154 = CARTESIAN_POINT('NONE', (0.0338201, 0.0508, -0.6096));
#155 = LINE('NONE', #154, #153);
#156 = DIRECTION('NONE', (-1, 0.00000000000000023053569566787033, 0));
#157 = VECTOR('NONE', #156, 1);
#158 = CARTESIAN_POINT('NONE', (0.0338201, 0.043357799999999995, -0));
#159 = LINE('NONE', #158, #157);
#160 = DIRECTION('NONE', (0, 0, -1));
#161 = VECTOR('NONE', #160, 1);
#162 = CARTESIAN_POINT('NONE', (0.0037210999999999998, 0.0433578, -0));
#163 = LINE('NONE', #162, #161);
#164 = DIRECTION('NONE', (-1, 0.00000000000000023053569566787033, 0));
#165 = VECTOR('NONE', #164, 1);
#166 = CARTESIAN_POINT('NONE', (0.0338201, 0.043357799999999995, -0.6096));
#167 = LINE('NONE', #166, #165);
#168 = DIRECTION('NONE', (0.00000000000000006501542164183402, -1, 0));
#169 = VECTOR('NONE', #168, 1);
#170 = CARTESIAN_POINT('NONE', (0.0037210999999999998, 0.0433578, -0));
#171 = LINE('NONE', #170, #169);
#172 = DIRECTION('NONE', (0, 0, -1));
#173 = VECTOR('NONE', #172, 1);
#174 = CARTESIAN_POINT('NONE', (0.0037211000000000054, -0.0433578, -0));
#175 = LINE('NONE', #174, #173);
#176 = DIRECTION('NONE', (0.00000000000000006501542164183402, -1, 0));
#177 = VECTOR('NONE', #176, 1);
#178 = CARTESIAN_POINT('NONE', (0.0037210999999999998, 0.0433578, -0.6096));
#179 = LINE('NONE', #178, #177);
#180 = DIRECTION('NONE', (1, 0.0000000000000004610713913357407, 0));
#181 = VECTOR('NONE', #180, 1);
#182 = CARTESIAN_POINT('NONE', (0.0037211000000000054, -0.0433578, -0));
#183 = LINE('NONE', #182, #181);
#184 = DIRECTION('NONE', (0, 0, -1));
#185 = VECTOR('NONE', #184, 1);
#186 = CARTESIAN_POINT('NONE', (0.033820100000000006, -0.04335779999999999, -0));
#187 = LINE('NONE', #186, #185);
#188 = DIRECTION('NONE', (1, 0.0000000000000004610713913357407, 0));
#189 = VECTOR('NONE', #188, 1);
#190 = CARTESIAN_POINT('NONE', (0.0037211000000000054, -0.0433578, -0.6096));
#191 = LINE('NONE', #190, #189);
#192 = DIRECTION('NONE', (0, -1, 0));
#193 = VECTOR('NONE', #192, 1);
#194 = CARTESIAN_POINT('NONE', (0.033820100000000006, -0.04335779999999999, -0));
#195 = LINE('NONE', #194, #193);
#196 = DIRECTION('NONE', (0, 0, -1));
#197 = VECTOR('NONE', #196, 1);
#198 = CARTESIAN_POINT('NONE', (0.033820100000000006, -0.05079999999999999, -0));
#199 = LINE('NONE', #198, #197);
#200 = DIRECTION('NONE', (0, -1, 0));
#201 = VECTOR('NONE', #200, 1);
#202 = CARTESIAN_POINT('NONE', (0.033820100000000006, -0.04335779999999999, -0.6096));
#203 = LINE('NONE', #202, #201);
#204 = DIRECTION('NONE', (-1, -0.00000000000000020517070925003855, 0));
#205 = VECTOR('NONE', #204, 1);
#206 = CARTESIAN_POINT('NONE', (0.033820100000000006, -0.05079999999999999, -0));
#207 = LINE('NONE', #206, #205);
#208 = DIRECTION('NONE', (-1, -0.00000000000000020517070925003855, 0));
#209 = VECTOR('NONE', #208, 1);
#210 = CARTESIAN_POINT('NONE', (0.033820100000000006, -0.05079999999999999, -0.6096));
#211 = LINE('NONE', #210, #209);
#212 = EDGE_CURVE('NONE', #5, #7, #59, .T.);
#213 = EDGE_CURVE('NONE', #7, #9, #63, .T.);
#214 = EDGE_CURVE('NONE', #11, #9, #67, .T.);
#215 = EDGE_CURVE('NONE', #5, #11, #71, .T.);
#216 = EDGE_CURVE('NONE', #7, #13, #75, .T.);
#217 = EDGE_CURVE('NONE', #13, #15, #79, .T.);
#218 = EDGE_CURVE('NONE', #9, #15, #83, .T.);
#219 = EDGE_CURVE('NONE', #13, #17, #87, .T.);
#220 = EDGE_CURVE('NONE', #17, #19, #91, .T.);
#221 = EDGE_CURVE('NONE', #15, #19, #95, .T.);
#222 = EDGE_CURVE('NONE', #17, #21, #99, .T.);
#223 = EDGE_CURVE('NONE', #21, #23, #103, .T.);
#224 = EDGE_CURVE('NONE', #19, #23, #107, .T.);
#225 = EDGE_CURVE('NONE', #21, #25, #111, .T.);
#226 = EDGE_CURVE('NONE', #25, #27, #115, .T.);
#227 = EDGE_CURVE('NONE', #23, #27, #119, .T.);
#228 = EDGE_CURVE('NONE', #25, #29, #123, .T.);
#229 = EDGE_CURVE('NONE', #29, #31, #127, .T.);
#230 = EDGE_CURVE('NONE', #27, #31, #131, .T.);
#231 = EDGE_CURVE('NONE', #29, #33, #135, .T.);
#232 = EDGE_CURVE('NONE', #33, #35, #139, .T.);
#233 = EDGE_CURVE('NONE', #31, #35, #143, .T.);
#234 = EDGE_CURVE('NONE', #33, #37, #147, .T.);
#235 = EDGE_CURVE('NONE', #37, #39, #151, .T.);
#236 = EDGE_CURVE('NONE', #35, #39, #155, .T.);
#237 = EDGE_CURVE('NONE', #37, #41, #159, .T.);
#238 = EDGE_CURVE('NONE', #41, #43, #163, .T.);
#239 = EDGE_CURVE('NONE', #39, #43, #167, .T.);
#240 = EDGE_CURVE('NONE', #41, #45, #171, .T.);
#241 = EDGE_CURVE('NONE', #45, #47, #175, .T.);
#242 = EDGE_CURVE('NONE', #43, #47, #179, .T.);
#243 = EDGE_CURVE('NONE', #45, #49, #183, .T.);
#244 = EDGE_CURVE('NONE', #49, #51, #187, .T.);
#245 = EDGE_CURVE('NONE', #47, #51, #191, .T.);
#246 = EDGE_CURVE('NONE', #49, #53, #195, .T.);
#247 = EDGE_CURVE('NONE', #53, #55, #199, .T.);
#248 = EDGE_CURVE('NONE', #51, #55, #203, .T.);
#249 = EDGE_CURVE('NONE', #53, #5, #207, .T.);
#250 = EDGE_CURVE('NONE', #55, #11, #211, .T.);
#251 = CARTESIAN_POINT('NONE', (-0.01691004999999998, -0.0508, -0.30480000000000007));
#252 = DIRECTION('NONE', (0, -1, -0));
#253 = AXIS2_PLACEMENT_3D('NONE', #251, #252, $);
#254 = PLANE('NONE', #253);
#255 = CARTESIAN_POINT('NONE', (-0.033820100000000006, -0.04707889999999995, -0.30479999999999996));
#256 = DIRECTION('NONE', (-1, 0, -0));
#257 = AXIS2_PLACEMENT_3D('NONE', #255, #256, $);
#258 = PLANE('NONE', #257);
#259 = CARTESIAN_POINT('NONE', (-0.018770600000000033, -0.043357799999999995, -0.30480000000000007));
#260 = DIRECTION('NONE', (0, 1, 0));
#261 = AXIS2_PLACEMENT_3D('NONE', #259, #260, $);
#262 = PLANE('NONE', #261);
#263 = CARTESIAN_POINT('NONE', (-0.0037211000000000024, 0, -0.3048));
#264 = DIRECTION('NONE', (-1, 0, -0));
#265 = AXIS2_PLACEMENT_3D('NONE', #263, #264, $);
#266 = PLANE('NONE', #265);
#267 = CARTESIAN_POINT('NONE', (-0.01877060000000003, 0.0433578, -0.30480000000000007));
#268 = DIRECTION('NONE', (0, -1, -0));
#269 = AXIS2_PLACEMENT_3D('NONE', #267, #268, $);
#270 = PLANE('NONE', #269);
#271 = CARTESIAN_POINT('NONE', (-0.0338201, 0.04707889999999997, -0.30479999999999996));
#272 = DIRECTION('NONE', (-1, 0, -0));
#273 = AXIS2_PLACEMENT_3D('NONE', #271, #272, $);
#274 = PLANE('NONE', #273);
#275 = CARTESIAN_POINT('NONE', (0, 0.0508, -0.3048));
#276 = DIRECTION('NONE', (0, 1, 0));
#277 = AXIS2_PLACEMENT_3D('NONE', #275, #276, $);
#278 = PLANE('NONE', #277);
#279 = CARTESIAN_POINT('NONE', (0.03382009999999999, 0.04707889999999999, -0.30479999999999996));
#280 = DIRECTION('NONE', (1, 0, 0));
#281 = AXIS2_PLACEMENT_3D('NONE', #279, #280, $);
#282 = PLANE('NONE', #281);
#283 = CARTESIAN_POINT('NONE', (0.018770600000000002, 0.043357799999999995, -0.3048));
#284 = DIRECTION('NONE', (0, -1, -0));
#285 = AXIS2_PLACEMENT_3D('NONE', #283, #284, $);
#286 = PLANE('NONE', #285);
#287 = CARTESIAN_POINT('NONE', (0.0037211000000000024, 0, -0.3048));
#288 = DIRECTION('NONE', (1, 0, 0));
#289 = AXIS2_PLACEMENT_3D('NONE', #287, #288, $);
#290 = PLANE('NONE', #289);
#291 = CARTESIAN_POINT('NONE', (0.018770600000000002, -0.043357799999999995, -0.3048));
#292 = DIRECTION('NONE', (0, 1, 0));
#293 = AXIS2_PLACEMENT_3D('NONE', #291, #292, $);
#294 = PLANE('NONE', #293);
#295 = CARTESIAN_POINT('NONE', (0.033820100000000006, -0.04707889999999999, -0.3048));
#296 = DIRECTION('NONE', (1, 0, 0));
#297 = AXIS2_PLACEMENT_3D('NONE', #295, #296, $);
#298 = PLANE('NONE', #297);
#299 = CARTESIAN_POINT('NONE', (0.016910050000000003, -0.0508, -0.3048));
#300 = DIRECTION('NONE', (0, -1, -0));
#301 = AXIS2_PLACEMENT_3D('NONE', #299, #300, $);
#302 = PLANE('NONE', #301);
#303 = CARTESIAN_POINT('NONE', (0, 0, -0));
#304 = DIRECTION('NONE', (0, -0, -1));
#305 = AXIS2_PLACEMENT_3D('NONE', #303, #304, $);
#306 = PLANE('NONE', #305);
#307 = CARTESIAN_POINT('NONE', (0, 0, -0.6096));
#308 = DIRECTION('NONE', (0, -0, -1));
#309 = AXIS2_PLACEMENT_3D('NONE', #307, #308, $);
#310 = PLANE('NONE', #309);
#311 = ORIENTED_EDGE('NONE', *, *, #212, .T.);
#312 = ORIENTED_EDGE('NONE', *, *, #213, .T.);
#313 = ORIENTED_EDGE('NONE', *, *, #214, .F.);
#314 = ORIENTED_EDGE('NONE', *, *, #215, .F.);
#315 = EDGE_LOOP('NONE', (#311, #312, #313, #314));
#316 = FACE_BOUND('NONE', #315, .T.);
#317 = ADVANCED_FACE('NONE', (#316), #254, .T.);
#318 = ORIENTED_EDGE('NONE', *, *, #216, .T.);
#319 = ORIENTED_EDGE('NONE', *, *, #217, .T.);
#320 = ORIENTED_EDGE('NONE', *, *, #218, .F.);
#321 = ORIENTED_EDGE('NONE', *, *, #213, .F.);
#322 = EDGE_LOOP('NONE', (#318, #319, #320, #321));
#323 = FACE_BOUND('NONE', #322, .T.);
#324 = ADVANCED_FACE('NONE', (#323), #258, .T.);
#325 = ORIENTED_EDGE('NONE', *, *, #219, .T.);
#326 = ORIENTED_EDGE('NONE', *, *, #220, .T.);
#327 = ORIENTED_EDGE('NONE', *, *, #221, .F.);
#328 = ORIENTED_EDGE('NONE', *, *, #217, .F.);
#329 = EDGE_LOOP('NONE', (#325, #326, #327, #328));
#330 = FACE_BOUND('NONE', #329, .T.);
#331 = ADVANCED_FACE('NONE', (#330), #262, .T.);
#332 = ORIENTED_EDGE('NONE', *, *, #222, .T.);
#333 = ORIENTED_EDGE('NONE', *, *, #223, .T.);
#334 = ORIENTED_EDGE('NONE', *, *, #224, .F.);
#335 = ORIENTED_EDGE('NONE', *, *, #220, .F.);
#336 = EDGE_LOOP('NONE', (#332, #333, #334, #335));
#337 = FACE_BOUND('NONE', #336, .T.);
#338 = ADVANCED_FACE('NONE', (#337), #266, .T.);
#339 = ORIENTED_EDGE('NONE', *, *, #225, .T.);
#340 = ORIENTED_EDGE('NONE', *, *, #226, .T.);
#341 = ORIENTED_EDGE('NONE', *, *, #227, .F.);
#342 = ORIENTED_EDGE('NONE', *, *, #223, .F.);
#343 = EDGE_LOOP('NONE', (#339, #340, #341, #342));
#344 = FACE_BOUND('NONE', #343, .T.);
#345 = ADVANCED_FACE('NONE', (#344), #270, .T.);
#346 = ORIENTED_EDGE('NONE', *, *, #228, .T.);
#347 = ORIENTED_EDGE('NONE', *, *, #229, .T.);
#348 = ORIENTED_EDGE('NONE', *, *, #230, .F.);
#349 = ORIENTED_EDGE('NONE', *, *, #226, .F.);
#350 = EDGE_LOOP('NONE', (#346, #347, #348, #349));
#351 = FACE_BOUND('NONE', #350, .T.);
#352 = ADVANCED_FACE('NONE', (#351), #274, .T.);
#353 = ORIENTED_EDGE('NONE', *, *, #231, .T.);
#354 = ORIENTED_EDGE('NONE', *, *, #232, .T.);
#355 = ORIENTED_EDGE('NONE', *, *, #233, .F.);
#356 = ORIENTED_EDGE('NONE', *, *, #229, .F.);
#357 = EDGE_LOOP('NONE', (#353, #354, #355, #356));
#358 = FACE_BOUND('NONE', #357, .T.);
#359 = ADVANCED_FACE('NONE', (#358), #278, .T.);
#360 = ORIENTED_EDGE('NONE', *, *, #234, .T.);
#361 = ORIENTED_EDGE('NONE', *, *, #235, .T.);
#362 = ORIENTED_EDGE('NONE', *, *, #236, .F.);
#363 = ORIENTED_EDGE('NONE', *, *, #232, .F.);
#364 = EDGE_LOOP('NONE', (#360, #361, #362, #363));
#365 = FACE_BOUND('NONE', #364, .T.);
#366 = ADVANCED_FACE('NONE', (#365), #282, .T.);
#367 = ORIENTED_EDGE('NONE', *, *, #237, .T.);
#368 = ORIENTED_EDGE('NONE', *, *, #238, .T.);
#369 = ORIENTED_EDGE('NONE', *, *, #239, .F.);
#370 = ORIENTED_EDGE('NONE', *, *, #235, .F.);
#371 = EDGE_LOOP('NONE', (#367, #368, #369, #370));
#372 = FACE_BOUND('NONE', #371, .T.);
#373 = ADVANCED_FACE('NONE', (#372), #286, .T.);
#374 = ORIENTED_EDGE('NONE', *, *, #240, .T.);
#375 = ORIENTED_EDGE('NONE', *, *, #241, .T.);
#376 = ORIENTED_EDGE('NONE', *, *, #242, .F.);
#377 = ORIENTED_EDGE('NONE', *, *, #238, .F.);
#378 = EDGE_LOOP('NONE', (#374, #375, #376, #377));
#379 = FACE_BOUND('NONE', #378, .T.);
#380 = ADVANCED_FACE('NONE', (#379), #290, .T.);
#381 = ORIENTED_EDGE('NONE', *, *, #243, .T.);
#382 = ORIENTED_EDGE('NONE', *, *, #244, .T.);
#383 = ORIENTED_EDGE('NONE', *, *, #245, .F.);
#384 = ORIENTED_EDGE('NONE', *, *, #241, .F.);
#385 = EDGE_LOOP('NONE', (#381, #382, #383, #384));
#386 = FACE_BOUND('NONE', #385, .T.);
#387 = ADVANCED_FACE('NONE', (#386), #294, .T.);
#388 = ORIENTED_EDGE('NONE', *, *, #246, .T.);
#389 = ORIENTED_EDGE('NONE', *, *, #247, .T.);
#390 = ORIENTED_EDGE('NONE', *, *, #248, .F.);
#391 = ORIENTED_EDGE('NONE', *, *, #244, .F.);
#392 = EDGE_LOOP('NONE', (#388, #389, #390, #391));
#393 = FACE_BOUND('NONE', #392, .T.);
#394 = ADVANCED_FACE('NONE', (#393), #298, .T.);
#395 = ORIENTED_EDGE('NONE', *, *, #249, .T.);
#396 = ORIENTED_EDGE('NONE', *, *, #215, .T.);
#397 = ORIENTED_EDGE('NONE', *, *, #250, .F.);
#398 = ORIENTED_EDGE('NONE', *, *, #247, .F.);
#399 = EDGE_LOOP('NONE', (#395, #396, #397, #398));
#400 = FACE_BOUND('NONE', #399, .T.);
#401 = ADVANCED_FACE('NONE', (#400), #302, .T.);
#402 = ORIENTED_EDGE('NONE', *, *, #249, .F.);
#403 = ORIENTED_EDGE('NONE', *, *, #246, .F.);
#404 = ORIENTED_EDGE('NONE', *, *, #243, .F.);
#405 = ORIENTED_EDGE('NONE', *, *, #240, .F.);
#406 = ORIENTED_EDGE('NONE', *, *, #237, .F.);
#407 = ORIENTED_EDGE('NONE', *, *, #234, .F.);
#408 = ORIENTED_EDGE('NONE', *, *, #231, .F.);
#409 = ORIENTED_EDGE('NONE', *, *, #228, .F.);
#410 = ORIENTED_EDGE('NONE', *, *, #225, .F.);
#411 = ORIENTED_EDGE('NONE', *, *, #222, .F.);
#412 = ORIENTED_EDGE('NONE', *, *, #219, .F.);
#413 = ORIENTED_EDGE('NONE', *, *, #216, .F.);
#414 = ORIENTED_EDGE('NONE', *, *, #212, .F.);
#415 = EDGE_LOOP('NONE', (#402, #403, #404, #405, #406, #407, #408, #409, #410, #411, #412, #413, #414));
#416 = FACE_BOUND('NONE', #415, .T.);
#417 = ADVANCED_FACE('NONE', (#416), #306, .F.);
#418 = ORIENTED_EDGE('NONE', *, *, #214, .T.);
#419 = ORIENTED_EDGE('NONE', *, *, #218, .T.);
#420 = ORIENTED_EDGE('NONE', *, *, #221, .T.);
#421 = ORIENTED_EDGE('NONE', *, *, #224, .T.);
#422 = ORIENTED_EDGE('NONE', *, *, #227, .T.);
#423 = ORIENTED_EDGE('NONE', *, *, #230, .T.);
#424 = ORIENTED_EDGE('NONE', *, *, #233, .T.);
#425 = ORIENTED_EDGE('NONE', *, *, #236, .T.);
#426 = ORIENTED_EDGE('NONE', *, *, #239, .T.);
#427 = ORIENTED_EDGE('NONE', *, *, #242, .T.);
#428 = ORIENTED_EDGE('NONE', *, *, #245, .T.);
#429 = ORIENTED_EDGE('NONE', *, *, #248, .T.);
#430 = ORIENTED_EDGE('NONE', *, *, #250, .T.);
#431 = EDGE_LOOP('NONE', (#418, #419, #420, #421, #422, #423, #424, #425, #426, #427, #428, #429, #430));
#432 = FACE_BOUND('NONE', #431, .T.);
#433 = ADVANCED_FACE('NONE', (#432), #310, .T.);
#434 = CLOSED_SHELL('NONE', (#317, #324, #331, #338, #345, #352, #359, #366, #373, #380, #387, #394, #401, #417, #433));
#435 = MANIFOLD_SOLID_BREP('NONE', #434);
#436 = APPLICATION_CONTEXT('configuration controlled 3D design of mechanical parts and assemblies');
#437 = PRODUCT_DEFINITION_CONTEXT('part definition', #436, 'design');
#438 = PRODUCT('UNIDENTIFIED_PRODUCT', 'NONE', $, ());
#439 = PRODUCT_DEFINITION_FORMATION('', $, #438);
#440 = PRODUCT_DEFINITION('design', $, #439, #437);
#441 = PRODUCT_DEFINITION_SHAPE('NONE', $, #440);
#442 = ADVANCED_BREP_SHAPE_REPRESENTATION('NONE', (#435), #3);
#443 = SHAPE_DEFINITION_REPRESENTATION(#441, #442);
ENDSEC;
END-ISO-10303-21;
